  0
SECTION
  2
HEADER
  9
$ACADVER
  1
AC1009
  0
ENDSEC
  0
SECTION
  2
ENTITIES
  0
CIRCLE
  5
90
  8
Layer_2
  62
0
  10
289.65253
  20
190.45326
  30
0
  40
20
  0
CIRCLE
  5
90
  8
Layer_1
  62
1
  10
173.05655
  20
239.49078
  30
0
  40
2
  0
CIRCLE
  5
90
  8
Layer_1
  62
1
  10
142.32153
  20
203.0163
  30
0
  40
2
  0
CIRCLE
  5
90
  8
Layer_1
  62
1
  10
289.65253
  20
213.97325
  30
0
  40
2
  0
CIRCLE
  5
90
  8
Layer_1
  62
1
  10
97.12709
  20
174.90967
  30
0
  40
2
  0
CIRCLE
  5
90
  8
Layer_1
  62
1
  10
127.86211
  20
211.38417
  30
0
  40
2
  0
CIRCLE
  5
90
  8
Layer_2
  62
0
  10
227.00002
  20
224.54675
  30
0
  40
20
  0
CIRCLE
  5
90
  8
Layer_1
  62
1
  10
227.00002
  20
201.02676
  30
0
  40
2
  0
POLYLINE
  5
90
  8
Layer_2
  62
0
  66
1
  10
0
  20
0
  30
0
  0
VERTEX
  5
90
  8
Layer_2
  10
192.53603
  20
203.79495
  0
VERTEX
  5
91
  8
Layer_2
  10
215.89716
  20
152.40045
  0
VERTEX
  5
92
  8
Layer_2
  10
115.89716
  20
152.40045
  0
VERTEX
  5
93
  8
Layer_2
  10
123.95995
  20
170.13861
  42
0.3876289
  0
VERTEX
  5
94
  8
Layer_2
  10
149.42061
  20
161.27477
  42
0.38762841
  0
VERTEX
  5
95
  8
Layer_2
  10
160.57652
  20
185.81776
  42
0.38762892
  0
VERTEX
  5
96
  8
Layer_2
  10
137.15703
  20
199.17218
  0
VERTEX
  5
97
  8
Layer_2
  10
165.89716
  20
262.40047
  0
VERTEX
  5
98
  8
Layer_2
  10
177.45631
  20
236.97031
  42
0.34546654
  0
VERTEX
  5
99
  8
Layer_2
  10
158.05588
  20
221.69785
  42
0.34546637
  0
VERTEX
  5
9a
  8
Layer_2
  10
168.27292
  20
199.22037
  42
0.34546669
  0
VERTEX
  5
9b
  8
Layer_2
  10
192.53603
  20
203.79495
  0
SEQEND
  0
POLYLINE
  5
9d
  8
Layer_2
  62
0
  66
1
  10
0
  20
0
  30
0
  0
VERTEX
  5
9d
  8
Layer_2
  10
289.65253
  20
262.00002
  0
VERTEX
  5
9e
  8
Layer_2
  10
339.65253
  20
152
  0
VERTEX
  5
9f
  8
Layer_2
  10
239.65253
  20
152
  0
VERTEX
  5
a0
  8
Layer_2
  10
289.65253
  20
262.00002
  0
SEQEND
  0
POLYLINE
  5
a2
  8
Layer_0
  62
5
  66
1
  10
0
  20
0
  30
0
  0
VERTEX
  5
a2
  8
Layer_0
  10
130
  20
250
  0
VERTEX
  5
a3
  8
Layer_0
  10
130
  20
220
  0
VERTEX
  5
a4
  8
Layer_0
  10
120
  20
229
  0
VERTEX
  5
a5
  8
Layer_0
  10
125
  20
229
  0
VERTEX
  5
a6
  8
Layer_0
  10
125
  20
241
  0
VERTEX
  5
a7
  8
Layer_0
  10
120
  20
241
  0
VERTEX
  5
a8
  8
Layer_0
  10
130
  20
250
  0
SEQEND
  0
POLYLINE
  5
aa
  8
Layer_2
  62
0
  66
1
  10
0
  20
0
  30
0
  0
VERTEX
  5
aa
  8
Layer_2
  10
133.02663
  20
215.22829
  42
-0.38762854
  0
VERTEX
  5
ab
  8
Layer_2
  10
109.60712
  20
228.58269
  42
-0.38762876
  0
VERTEX
  5
ac
  8
Layer_2
  10
120.76302
  20
253.1257
  42
-0.38762855
  0
VERTEX
  5
ad
  8
Layer_2
  10
146.22369
  20
244.26184
  0
VERTEX
  5
ae
  8
Layer_2
  10
154.28648
  20
262
  0
VERTEX
  5
af
  8
Layer_2
  10
54.286484
  20
262
  0
VERTEX
  5
b0
  8
Layer_2
  10
77.647614
  20
210.6055
  42
-0.34546674
  0
VERTEX
  5
b1
  8
Layer_2
  10
101.91071
  20
215.18011
  42
-0.34546659
  0
VERTEX
  5
b2
  8
Layer_2
  10
112.12776
  20
192.70262
  42
-0.34546671
  0
VERTEX
  5
b3
  8
Layer_2
  10
92.727325
  20
177.43015
  0
VERTEX
  5
b4
  8
Layer_2
  10
104.28648
  20
152
  0
VERTEX
  5
b5
  8
Layer_2
  10
133.02663
  20
215.22829
  0
SEQEND
  0
POLYLINE
  5
b7
  8
Layer_0
  62
5
  66
1
  10
0
  20
0
  30
0
  0
VERTEX
  5
b7
  8
Layer_0
  10
95.75074
  20
213.3252
  0
VERTEX
  5
b8
  8
Layer_0
  10
95.75074
  20
183.3252
  0
VERTEX
  5
b9
  8
Layer_0
  10
85.75074
  20
192.3252
  0
VERTEX
  5
ba
  8
Layer_0
  10
90.75074
  20
192.3252
  0
VERTEX
  5
bb
  8
Layer_0
  10
90.75074
  20
204.3252
  0
VERTEX
  5
bc
  8
Layer_0
  10
85.75074
  20
204.3252
  0
VERTEX
  5
bd
  8
Layer_0
  10
95.75074
  20
213.3252
  0
SEQEND
  0
POLYLINE
  5
bf
  8
Layer_0
  62
5
  66
1
  10
0
  20
0
  30
0
  0
VERTEX
  5
bf
  8
Layer_0
  10
175.86629
  20
230.69429
  0
VERTEX
  5
c0
  8
Layer_0
  10
175.86629
  20
200.69429
  0
VERTEX
  5
c1
  8
Layer_0
  10
165.86629
  20
209.69429
  0
VERTEX
  5
c2
  8
Layer_0
  10
170.86629
  20
209.69429
  0
VERTEX
  5
c3
  8
Layer_0
  10
170.86629
  20
221.69429
  0
VERTEX
  5
c4
  8
Layer_0
  10
165.86629
  20
221.69429
  0
VERTEX
  5
c5
  8
Layer_0
  10
175.86629
  20
230.69429
  0
SEQEND
  0
POLYLINE
  5
c7
  8
Layer_0
  62
5
  66
1
  10
0
  20
0
  30
0
  0
VERTEX
  5
c7
  8
Layer_0
  10
142.2972
  20
165.7766
  0
VERTEX
  5
c8
  8
Layer_0
  10
142.2972
  20
195.7766
  0
VERTEX
  5
c9
  8
Layer_0
  10
132.2972
  20
186.7766
  0
VERTEX
  5
ca
  8
Layer_0
  10
137.2972
  20
186.7766
  0
VERTEX
  5
cb
  8
Layer_0
  10
137.2972
  20
174.7766
  0
VERTEX
  5
cc
  8
Layer_0
  10
132.2972
  20
174.7766
  0
VERTEX
  5
cd
  8
Layer_0
  10
142.2972
  20
165.7766
  0
SEQEND
  0
POLYLINE
  5
cf
  8
Layer_0
  62
5
  66
1
  10
0
  20
0
  30
0
  0
VERTEX
  5
cf
  8
Layer_0
  10
292.09085
  20
206.27965
  0
VERTEX
  5
d0
  8
Layer_0
  10
292.09085
  20
176.27965
  0
VERTEX
  5
d1
  8
Layer_0
  10
282.09085
  20
185.27965
  0
VERTEX
  5
d2
  8
Layer_0
  10
287.09085
  20
185.27965
  0
VERTEX
  5
d3
  8
Layer_0
  10
287.09085
  20
197.27965
  0
VERTEX
  5
d4
  8
Layer_0
  10
282.09085
  20
197.27965
  0
VERTEX
  5
d5
  8
Layer_0
  10
292.09085
  20
206.27965
  0
SEQEND
  0
POLYLINE
  5
d7
  8
Layer_2
  62
0
  66
1
  10
0
  20
0
  30
0
  0
VERTEX
  5
d7
  8
Layer_2
  10
227.00002
  20
153
  0
VERTEX
  5
d8
  8
Layer_2
  10
277
  20
263.00002
  0
VERTEX
  5
d9
  8
Layer_2
  10
177.00002
  20
263.00002
  0
VERTEX
  5
da
  8
Layer_2
  10
227.00002
  20
153
  0
SEQEND
  0
POLYLINE
  5
dc
  8
Layer_0
  62
5
  66
1
  10
0
  20
0
  30
0
  0
VERTEX
  5
dc
  8
Layer_0
  10
224.56166
  20
208.72037
  0
VERTEX
  5
dd
  8
Layer_0
  10
224.56166
  20
238.72037
  0
VERTEX
  5
de
  8
Layer_0
  10
234.56168
  20
229.72037
  0
VERTEX
  5
df
  8
Layer_0
  10
229.56166
  20
229.72037
  0
VERTEX
  5
e0
  8
Layer_0
  10
229.56166
  20
217.72037
  0
VERTEX
  5
e1
  8
Layer_0
  10
234.56168
  20
217.72037
  0
VERTEX
  5
e2
  8
Layer_0
  10
224.56166
  20
208.72037
  0
SEQEND
  0
POLYLINE
  5
e4
  8
Layer_0
  62
5
  66
1
  10
0
  20
0
  30
0
  0
VERTEX
  5
e4
  8
Layer_0
  10
62.088821
  20
229.32199
  0
VERTEX
  5
e5
  8
Layer_0
  10
62.088821
  20
199.32199
  0
VERTEX
  5
e6
  8
Layer_0
  10
52.088821
  20
208.32199
  0
VERTEX
  5
e7
  8
Layer_0
  10
57.088821
  20
208.32199
  0
VERTEX
  5
e8
  8
Layer_0
  10
57.088821
  20
220.32199
  0
VERTEX
  5
e9
  8
Layer_0
  10
52.088821
  20
220.32199
  0
VERTEX
  5
ea
  8
Layer_0
  10
62.088821
  20
229.32199
  0
SEQEND
  0
POLYLINE
  5
ec
  8
Layer_0
  62
5
  66
1
  10
0
  20
0
  30
0
  0
VERTEX
  5
ec
  8
Layer_0
  10
61.713509
  20
186.18515
  0
VERTEX
  5
ed
  8
Layer_0
  10
61.713509
  20
156.18515
  0
VERTEX
  5
ee
  8
Layer_0
  10
51.713509
  20
165.18515
  0
VERTEX
  5
ef
  8
Layer_0
  10
56.713509
  20
165.18515
  0
VERTEX
  5
f0
  8
Layer_0
  10
56.713509
  20
177.18515
  0
VERTEX
  5
f1
  8
Layer_0
  10
51.713509
  20
177.18515
  0
VERTEX
  5
f2
  8
Layer_0
  10
61.713509
  20
186.18515
  0
SEQEND
  0
POLYLINE
  5
f4
  8
Layer_0
  62
5
  66
1
  10
0
  20
0
  30
0
  0
VERTEX
  5
f4
  8
Layer_0
  10
79.352882
  20
186.18515
  0
VERTEX
  5
f5
  8
Layer_0
  10
79.352882
  20
156.18515
  0
VERTEX
  5
f6
  8
Layer_0
  10
69.352882
  20
165.18515
  0
VERTEX
  5
f7
  8
Layer_0
  10
74.352882
  20
165.18515
  0
VERTEX
  5
f8
  8
Layer_0
  10
74.352882
  20
177.18515
  0
VERTEX
  5
f9
  8
Layer_0
  10
69.352882
  20
177.18515
  0
VERTEX
  5
fa
  8
Layer_0
  10
79.352882
  20
186.18515
  0
SEQEND
  0
POLYLINE
  5
fc
  8
Layer_0
  62
5
  66
1
  10
0
  20
0
  30
0
  0
VERTEX
  5
fc
  8
Layer_0
  10
316
  20
263.00002
  0
VERTEX
  5
fd
  8
Layer_0
  10
316
  20
233.00002
  0
VERTEX
  5
fe
  8
Layer_0
  10
306
  20
242.00002
  0
VERTEX
  5
ff
  8
Layer_0
  10
311
  20
242.00002
  0
VERTEX
  5
100
  8
Layer_0
  10
311
  20
254.00002
  0
VERTEX
  5
101
  8
Layer_0
  10
306
  20
254.00002
  0
VERTEX
  5
102
  8
Layer_0
  10
316
  20
263.00002
  0
SEQEND
  0
POLYLINE
  5
104
  8
Layer_0
  62
5
  66
1
  10
0
  20
0
  30
0
  0
VERTEX
  5
104
  8
Layer_0
  10
332
  20
263
  0
VERTEX
  5
105
  8
Layer_0
  10
332
  20
233
  0
VERTEX
  5
106
  8
Layer_0
  10
322
  20
242
  0
VERTEX
  5
107
  8
Layer_0
  10
327
  20
242
  0
VERTEX
  5
108
  8
Layer_0
  10
327
  20
254
  0
VERTEX
  5
109
  8
Layer_0
  10
322
  20
254
  0
VERTEX
  5
10a
  8
Layer_0
  10
332
  20
263
  0
SEQEND
  0
POLYLINE
  5
10c
  8
Layer_0
  62
5
  66
1
  10
0
  20
0
  30
0
  0
VERTEX
  5
10c
  8
Layer_0
  10
331.4577
  20
222.02859
  0
VERTEX
  5
10d
  8
Layer_0
  10
331.4577
  20
192.02859
  0
VERTEX
  5
10e
  8
Layer_0
  10
321.4577
  20
201.02859
  0
VERTEX
  5
10f
  8
Layer_0
  10
326.4577
  20
201.02859
  0
VERTEX
  5
110
  8
Layer_0
  10
326.4577
  20
213.02859
  0
VERTEX
  5
111
  8
Layer_0
  10
321.4577
  20
213.02859
  0
VERTEX
  5
112
  8
Layer_0
  10
331.4577
  20
222.02859
  0
SEQEND
  0
ENDSEC
  0
EOF
